Mama Kin (Tab) - Guns N' Roses
Guns n' Roses

 
Mama Kin (Aerosmith)
Guns N' Roses
Live like a suicide




Intro
|-----------|------------------------------------------------------|
|-----------|------------------------------------------------------|
|--x--x--x--|---9--9--9--9--9--------------------------------------|
|--x--x--x--|---9--9--9--9--9----9--9--9--9--9----7--7--7--7--7----|
|--x--x--x--|---7--7--7--7--7----9--9--9--9--9----7--7--7--7--7----|
|-----------|--------------------7--7--7--7--7----5--5--5--5--5----|

For the verses you play: (thanks Monica)
|---------------------------------------------------|
|---------------------------------------------------|
|---------------------------------------------------|
|----2--2---4--2-2--4-------------------------------|
|----2--2---4--2-2--4-------------------------------|
|---------------------------------------------------|

Chorus          Keepin' touch with mama kin...
|---------------|-----------------------------------|
|---------------|-----------------------------------|
|---------------|---------------------------9-------|
|-----2--2--2---|---------------------9--9--9-------|
|-----2--2--2---|---------------------9--9--7-------|
|-----0--0--0---|---------------------7--7----------|

If anyone knows solo/verses etc. send it
by e-mail at: aps_pals@hotmail.com



 Back


Guns N' Roses
Anup Tamrakar, Pujan Shrestha & Ashish L Shrestha
mail to: aps_pals@hotmail.com

 

1