Source: geocities.com/mavers81

#----------------------------------PLEASE NOTE--------------------------------#
#This file is the author's own work and represents their interpretation of the#
#song. You may only use this file for private study, scholarship, or research.#
#-----------------------------------------------------------------------------#
#-- File created with Instab - http://www.pconline.com/~smcarey/instab.html --#
#-----------------------------------------------------------------------------#

Author/Artist: Lee Mavers
Title: I.O.U.
Album: The La's
Transcribed by: Steven Williams, Thomas Fox
Email: mavers@hotmail.com, TFox01@aol.com

Chord Fingerings

       E a d g b e
A      x 0 2 2 2 0
G      3 2 0 0 3 0
D      x x 0 2 3 2
Dsus2  x x 0 2 3 0
F#m    2 4 4 2 2 2
B      x 2 4 4 4 2
Cadd9  x 3 2 0 3 0

G1: Guitar 1 (Paul Hemmings)
G2: Guitar 2 (Lee Mavers)

G1 Intro:
-|----------------|-------------------------------|------------------------|-
-|----------------|--3-------x-3-3-----3--3-------|--3-------x-3-3---------|-
-|----2---0-------|--2--2-2--x-2-2-----2--2-------|--2--2-2--x-2-2--2-2-2--|-
-|-------------0--|--0--4-5----0-0--0--0--0---0---|--0--4-5----0-0--4-5-4--|-
-|--0---0---0-----|-----------------3b--------3b--|------------------------|-
-|----------------|-------------------------------|------------------------|-
(Guitar 2 carries on with variations of the above riffs throughout the verses)
                                                                     
G2 Verse: 
A    G D            A      G  D
Ever-y day, there's always..
A    G  D        A   G   D
Much to pay, the law says

G2 Chorus:
G  D  A    G   D   A 
I owe you, you owe me
G    D    A
I'll know you-hoo..
    G                     D
Can stand on your own two feet


G2 Bridge:
F#m    B
On the farm
G                   A
Linking your arm in arm
F#m        B
There's no harm in
G                         Cadd9
Greasing your neighbour's palm


G1 Solo:
--|----------------------------|-----------------------------------------------
--|-----5--7--8--7--5----------|-------5---7--8--7--5--------------------------
--|--7-----------------7--5b6--|-----------------------7--5b6------------------
--|----------------------------|-----------------------------------------------
--|----------------------------|-----------------------------------------------
--|----------------------------|-----------------------------------------------
                                                                              

--|------------------------------------------------------------|----------------
--|-----5--7--8--7--5------------------------------------------|----------------
--|--7-----------------7--5b6----7--5b6------7--5b6----7--5b6--|----------------
--|----------------------------7----------7----------7---------|----------------
--|------------------------------------------------------------|----------------
--|------------------------------------------------------------|----------------
                                                                 I owe you..            

G2: (Same chords as Verse)