Source: geocities.com/mavers81

#----------------------------------PLEASE NOTE--------------------------------#
#This file is the author's own work and represents their interpretation of the#
#song. You may only use this file for private study, scholarship, or research.#
#-----------------------------------------------------------------------------#
#-- File created with Instab - http://www.pconline.com/~smcarey/instab.html --#
#-----------------------------------------------------------------------------#

Author/Artist: The La's
Title: There She Goes
Album: The La's
Transcribed by: Steven Williams
Email: mavers@hotmail.com

G1: Guitar 1 (John 'Boo' Byrne) 
G2: Guitar 2 (Lee Mavers) 

Chord Fingerings:
       E a d g b e
G      3 2 0 0 3 0
D      x x 0 2 3 2 
Cadd9  x 3 2 0 3 0
F#/G   2 0 0 0 3 3
Am     x 0 2 2 1 0
Em     0 2 2 0 0 0
C      0 3 2 0 1 0


G1 Intro (play 8 times):                                                                           
-|---3---5---2---3---0---0---0------|-
-|-3---3---3---3---3---3---3---3----|-    
-|--------------------------------0-|-
-|----------------------------------|- 
-|----------------------------------|-  
-|----------------------------------|-   

G2 Intro (start this on the 4th repeat of the G1 intro riff):
G   D   Cadd9 F#/G (play the F#/G chord fast three times) 
G   D   Cadd9 F#/G
G   D   Cadd9 F#/G

G1 Pre-Verse: 
-|-------3-5-3-0-------3--3--3-3---5-5-5-5-5-3-2-|-
-|---3-5---------3-3h5---5--5--5---7-7-7-7-7-5-3-|-
-|-----------------------------------------------|-
-|-----------------------------------------------|-
-|-----------------------------------------------|-
-|-----------------------------------------------|-

G2 Pre-Verse:
Am   G  Cadd9 - D

G1 Verse: (play 3 times)
-|---3---5---2---3---0---0---0------|-
-|-3---3---3---3---3---3---3---3----|-    
-|--------------------------------0-|-
-|----------------------------------|- 
-|----------------------------------|-  
-|----------------------------------|- 

G2 Verse:                             
G     D   Cadd9 F#/G                   
There she goes                
G         D    Cadd9 F#/G                          
There she goes again
G      D       Cadd9 
Racin' thru' my brain

G1 Chorus:
-|-----3-5--------3-5-------3-5---------3----3---3-3--5-5-5-5-5-3-2-|-
-|-3-5-----3--3-5-----3--3-5----3-0-3h5----5---5------7-7-7-7-7-5-3-|-
-|------------------------------------------------------------------|-          
-|------------------------------------------------------------------|-
-|------------------------------------------------------------------|-
-|------------------------------------------------------------------|-

G2 Chorus:
    Am     G     Cadd9
And I just can't contain
     Am      G    Cadd9   - D   
This feelin' that remains

Both guitars repeat the verse and chorus then go to the bridge

G1 Bridge: (repeat the verse and chorus riffs)

G2 Bridge: (repeat the verse and chorus)

Then both guitars do another pre-verse then move to the middle 8

G2 Middle 8:
Em        C     Em             C
There she goes, there she goes again
    D        G     D        Cadd9
She calls my name, pulls my train
D      G        D       Cadd9
No-one else can heal my pain

G1 Middle 8 Verse: 
-|-2---2---3---3---5---5---3---3----|-
-|---3---3---3---3---3---3---3---3--|-    
-|----------------------------------|-
-|----------------------------------|- 
-|----------------------------------|-  
-|----------------------------------|-

-|-2---2---3---3---5---5----5--2--3-2-0--------0-2-3--3--3-2-0-------0-2-|-
-|---3---3---3---3---3---3--3--3--------3-1-3------------------3-1-3-----|-    
-|-----------------------------------------------------------------------|-
-|-----------------------------------------------------------------------|- 
-|-----------------------------------------------------------------------|-  
-|-----------------------------------------------------------------------|-

G2 Middle 8 Chorus:
    Am           Em
And I just can't contain
     Cadd9         D
This feelin' that remains

G1 Middle 8 Chorus:
-|-7-7-7-7-7-7-7-3----7-7-7-7-7-7-3----5-5--5-5-5-5-3---5-5-5-5-5-3-2-|-
-|-5-5-5-5-5-5-5---5--5-5-5-5-5-5---5--3-3--3-3-3-3-3---7-7-7-7-7-5-3-|-    
-|--------------------------------------------------------------------|-
-|--------------------------------------------------------------------|- 
-|--------------------------------------------------------------------|-  
-|--------------------------------------------------------------------|- 

G1 Verse: (play 3 times)
-|---3---5---2---3---0---0---0------|-
-|-3---3---3---3---3---3---3---3----|-    
-|--------------------------------0-|-
-|----------------------------------|- 
-|----------------------------------|-  
-|----------------------------------|-   

G2 Verse:
G     D   Cadd9  F#/G   
There she goes
G         D    Cadd9 F#/G    
There she goes again
G       D       Cadd9  
Chasing down my lane

G1 Chorus:
-|-----3-5--------3-5--------3-5-3----------3---3---3-3--5-5-5-5-5-3-2-|-
-|-3-5-----3--3-5-----3--3-5-------5-3-3h5----5---5------7-7-7-7-7-5-3-|-
-|---------------------------------------------------------------------|-
-|---------------------------------------------------------------------|-
-|---------------------------------------------------------------------|-
-|---------------------------------------------------------------------|-

G2 Chorus:
    Am     G     Cadd9
And I just can't contain
     Am      G    Cadd9  -  D 
This feelin' that remains

G1 Outro: (play 3 times)
-|----3---5---2---3---0--5-5-5-5-5-3-2--|-
-|--3---3---3---3---3----7-7-7-7-7-5-3--|-   
-|--------------------------------------|-
-|--------------------------------------|-
-|--------------------------------------|-  
-|--------------------------------------|-

G2 Outro:
G     D   Cadd9 - D    
There she goes
G     D   Cadd9 - D
There she goes
G     D   Cadd9 - D
There she goes

Both Guitars end on G