Tabs para guitarra


Acordes de algunas canciones...

No tengo ni idea de tocar la guitarra :-( pero mucha gente me ha pedido los acordes o tabs para tocar las canciones. Aquí hay unos cuantos, no se si seran correctos, o no sonaran como tu quieres... No los he escrito YO®, si quieres, escribe a los grandes colegas que me los enviaron para solucionar tus dudas.

http://come.to/suaves

¡Animate a mandarme más como estos! Estan todos en esta misma pagina para que lo puedas imprimir, asi que espera a que se cargue del todo.



http://come.to/suaves

*VISPERA DE TODOS LOS SANTOS


Para F.J. Ruperez Vispera de Todos los santos es uno de los mejores discos del grupo, aqui estan los tabs que el ha sacado de este disco fjruperez@hotmail.com


VISPERA DE TODOS LOS SANTOS

B5 C#5 D#5 E5*
B5 A5 G#5 G5
E5^F#5 E5 D5



HARTO DE SER HOMBRE

E5 G5* D5 A5 G5
B5 A5
E5 D5 A5 G5(PARTE RAPIDA)



PALABRAS PARA JULIA

INTRO
C#5 F#5* C#5 G#5
VERSO
C#5 B5 A5 G#5
CAMBIO
E5* F#5 C#5 G#5



NO ME GUSTA EL ROCK & ROLL

A5 (ROCK)
F5 C5 G5 D5
C#5 E5(PUNTEO)
F5 G5 A5 G5* O G5 F5 G5
PASO AL ULTIMO ESTRIBILLO
F5 G5 A5



CHOU-CHOU LLEGA EL TREN

INTRO
D5 C5 B5 A5 C5 B5 A5 G5 F#5 E5
INTRO 2
|-----------------------------|
|-----------------------------|
|-----------------------------|
|--------5^-------------------|
|--5^7-----^7---7^5-----3^2---|
|-----------------------------|
VERSO
E5 G5 C5 A5



DULCES NOCHES DE LUNA Y PATERAS

INTRO(ACUSTIC)
E5 D5 A5 E5 D5 C5
VERSO
E5 E5* D5 A5 E5 D5 C5
PUENTE
G5* F#5* E5* E5*/F#5
CAMBIO
F#5* (G5* F#5* E5* G5* F#5* E5*)F#5* (G5* F#5* E5* D5 C5 B5)
ESTRIBILLO
A5 B5 C5 D5 (E5* F#5* G5*) A5 B5 C5 D5



LA PEOR CANCIÓN DEL MUNDO

VERSO
C#5
ENTRE LETRA
C#5 E5 B5 F#5 CON UN PUNTEILLO QUE ES(F#5 G#5 B5 E5* B5)
CAMBIO
A5 B5 E5* F#5* A5 B5 C#5



SIEMPRE CON MIEDO
INTRO
|-----3---------3------------3------3------|
|-------3---------3------0^2---2------3----|
|---------0---------0-------------------0--|
|---------------------------------0--------|
|----------------------0-------------------|
|--3---------0-----------------------------|
G E A D
CAMBIO
E5 B5 A5
CAMBIO2
C5 A5



MIÉNTEME

E5 C5 G5 D5
C5 A5 (A5/G5/F#5) E5 D5 (A5/B5/C5) C5 A5
PASO AL FINAL EN G5 LUEGO----
F#5 D5 A5 E5*



http://come.to/suaves

*DOLORES SE LLAMABA LOLA

La+                 Mi+
Fuiste la niña de azul,
Fa #-               Re
en el colegio de monjas
La+                 Mi+
calzetines y coletas,
Fa#-                Re
y estabas loca por Paco.
Examenes y veranos,
vacaciones y de ....
La+                   Fa#-
LAS VUELTAS QUE DA LA VIDA
Re+                   Mi+
EL DESTINO SE BURLA DE TI,
                      Fa#-
DÓNDE VAS BALA PERDIDA,
Re+                   Mi+
DÓNDE VAS TRISTE DE TI(bis)
En las estrofas, se van repitiendo sucesivamente los mismos acordes La, Mi, Fa#- y Re, al igual que en malas noticias se repite siempre La-, Sol, Fa, Sol (el + significa mayor, no aumentado, y - menor). No sé si las notas son las originales, pero a mi ya me suenan bien.

Corresponden a los Tabs:

        La     A
        Mi     E
        Fa     F
        Re     D
        Sol    G
        Do     C
        Si     B
Estos acordes me los envio Neus, si tienes alguna duda puedes escribirle boloix@redestb.es sergih@arrakis.es

Esto es otra forma (creo) me lo envio Carlos: "Lo de las tabs, no te entiendo muy bien lo que me quieres decir, pero los grupos americanos ponen las partituras con numeros, que es como yo se tocar, bueno estoy aprendiendo. Te pongo un ejemplo:"

1|-------------------------------|-----------------------------
2|----------------2--------------|-3---------------------------
3|----------------2--------------|-4---------------1-----------
4|-0-0-2-0-4-2-0--2--0-2-0-4-2-0-|-4--0-2-0-4-2-0--2-----------
5|-------------------------------|-----------------2-----------
6|-------------------------------|-----------------------------
                                 Cejilla en la 2
Es el unico trozo de Dolores se llamaba Lola que me se.
Esto me lo paso un colega que se llama Carlos, escribele para solucionar tus dudas e6749471@chooyu.upc.es

                   A               B5                G5
e |------------------------------------------------------|
B |----------------2-------------------------------------|
G |----------------2----------------4--------------------|
D |-0-0-2-0-4-2-0--2---0-2-0-4-2-0--4---0-2-0-4-2-0--5---|
A |---------------------------------2----------------5---|
E |--------------------------------------------------3---|

Esta modificación del punteo la hizo Alex Pérez "Irpe" irpe@oocities.com perezcabrera@mundivia.es. No se si sonara mejor o peor pero la cosa es probar.

Otra mas... por algo es la cancion mas conocida de Los Suaves

INTRO
|---------------------------------2------------------|
|---------------------------------2---------------3--|
|-----------------1---------------2---------------2--|
|-----------------2---------------4---------------0--|
|--0-0-2-0-4-2-0--2--0-2-0-4-2-0--4--0-2-0-4-2-0-----|
|-----------------0---------------2------------------|

VERSO
(fuiste la niña.....)
A5 E5 F#5 D5

ESTRIBILLO
(las vueltas que da....)
A5 F#5 D5 E5 A5 F#5 D5 E5 D5 E5



http://come.to/suaves

*MALAS NOTICIAS

La-                     Sol
La noche se está cayendo
Fa                      Sol
y con ella cae el tiempo,
La-                     Sol
el día no sirbió de nada
Fa                      Sol
tarde de nuves sin agua
La-                     Sol
Hoy el cielo es de cemento,
Fa                      Sol
parece que Dios está muerto,
La-                     Sol
golpean la puerta de casa,
Fa                      Sol
mensajeros de desgracia.
Estos acordes tambien me los envio por email Neus, animate a mandarme alguno mas, si quieres puedes escribir a Neus por si tienes alguna duda boloix@redestb.es



http://come.to/suaves

*ESTA VIDA ME VA A MATAR

Es una canción muy sencilla, se toca toda con quintas, y es toda igual, no cambia ni el estribillo. Para dudas, modificaciones o sugerencias, escribeme Alex Pérez "Irpe" irpe@oocities.com perezcabrera@mundivia.es
   C5                   D5
   Llevamos un siglo tocando
   A5                  E5
   y aun no vimos un duro,
   C5                   D5
   descargando como locos
   A5                  E5
   canciones y el material,
   C5                   D5
   dicutiendo en los ensayos,
   A5                  E5
   pagando letras con apuros.

   C5                   D5
   Y es que vivir con el rock,
   A5                  E5
   amigos, me va a matar.
   ...



http://come.to/suaves

*PELIGROSA MARIA

Esta cancion se toca con acordes, es toda igual. El unico hecho a tener en cuenta es que el Mi (E) y el Do (C), debes tocarlos mas seguidos que los otros acordes, es decir, tienen, menos duracion.Para dudas, modificaciones o sugerencias, escribeme Alex Pérez "Irpe" irpe@oocities.com perezcabrera@mundivia.es
   G                        D                   E  C
   Sabado a la noche sali a pasear.
   G                        D                   E  C
   Con mis amigos fuí al "Whisky Bar"
   G                        D                   E  C
   Allí conocí a una chica, Maria.
   G                        D                   E  C
   La recordaré mientras viva.

   G                        D                   E  C
   La cosa al principio funcionó muy bien,
   G                        D                   E  C
   charlamos en la barra y luego fuimos a bailar.
   G                        D                   E  C
   Ya de madrugada, en el cuarto del hotel,
   G                        D                   E  C
   le dí lo que queria lo que venia a buscar.

   G                        D                   E  C
   No sabía lo que me esperaba.
   G                        D                   E  C
   No sabía lo que me esperaba.
   G                        D                   E  C
   No sabía que la llamaban.
   G                        D                   E  C
   Peligrosa Maria
   G                        D                   E  C
   Peligrosa Maria
   G                        D                   E  C
   Peligrosa Maria
   G                        D                   E  C
   Peligrosa Maria.
Me bajé de la WEB el tab de esta kanción, pero no me terminaron de konvencer los akordes, no sonaba del todo bien, así ke he intentado sakarla yo y este ha sido el resultado:
Intro (Y se usa para toda la kanción excepto el estribillo):

D5	A5	C5	G5

El Yosi kanta sus desventuras, y para el estribillo es:

B5              A5
   No sabía lo que me esperaba

B5             A5
   No sabía lo que me esperaba

B5            A5
   No sabía ke la llamaban 


Peligrosa María, Peligrosa María etc kon el tirmo del principio (DACG)

Bueno, yo kreo ke así suena mejor, ya me kontaréis. Korrekciones, sugerencias, lo ke sea, a zaphire@oocities.com


http://come.to/suaves

*PARDAO

Esta cancion se toca con acordes, es toda igual. El unico hecho a tener en cuenta es que el Mi (E) y el Do (C), debes tocarlos mas seguidos que los otros acordes, es decir, tienen, menos duracion.Para dudas, modificaciones o sugerencias, escribeme Alex Pérez "Irpe" irpe@oocities.com perezcabrera@mundivia.es
   G            D                 Am          C  D
   Entre los charcos de la ultima lluvia
   G            D                 Am          C  D
   y una esquina no muy frecuentada
   G            D                 Am          C  D
   de una ciudad sucia y olvidada
   G            D                 Am          C  D
   llega el cantor a empezar la jornada
   G            D                 Am          C  D
   y de una funda hecha una ruina
   G            D                 Am          C  D
   saca a su amiga vieja y gastada
   G            D                 Am          C  D
   afina un poco sus cuerdas cansadas
   G            D                 Am          C  D
   mientras la gente pasa apresurada.

   G            D                 Am          C  D
   Y nadie sabe como pasa su vida
   G            D                 Am          C  D
   nadie se entera como su vida pasa.
   G            D                 Am          C  D
   "Pardao" le llaman en la plaza
   G            D                 Am          C  D
   porque aunque llueva el canta
   G            D                 Am          C  D
   ...y no se marcha.

Aquí tienes un "punteo" de la misma canción, transcrito por Alberto de la Vega delavega@redestb.es

   Entre los charcos de la última lluvia...  ...Y nadie sabe cómo pasa
su 								vida...   

   G     D        Am    C     D                 Em    D     C

e:-3-----2--3-----0-----0-----2-----------------0-----2-----0--------------|
B:-3-----3--3-----1-----1-----3-----------------0-----3-----1--------------|
G:-0-----2--2-----2-----0-----2-----------------0-----2-----0--------------|
D:-0-----0--0-----2-----2-----0-----------------2-----0-----2--------------|
A:-2--------------0-----3-----------------------2-----------3--------------|
E:-3--------------------------------------------0--------------------------|


  ...Mira que vida lleva...   
                        
     G     D     C     D

e:----------------------|
B:----------------------|
G:---------7-----5-----7|
D:---5-----7-----5-----7|
A:---5-----5-----3-----5|
E:---3------------------|



http://come.to/suaves

*ESE DIA PIENSA EN MI

VERSION 1 Es una canción muy sencilla, se toca toda con quintas, y es toda igual, no cambia ni el estribillo. Para dudas, modificaciones o sugerencias, escribeme Alex Pérez "Irpe" irpe@oocities.com perezcabrera@mundivia.es
   D5              C5        B5       D5
   El dia que se acabe el tiempo,
   D5              C5        B5       D5
   cuando el sol se apague para mi.
   D5              C5        B5       D5
   El dia de la eterna noche sin sueños,
   D5              C5        B5       D5
   cuando por fin deje de sufrir.
   D5              C5        B5       D5
   El dia en que de madrugada la dama
   D5              C5        B5       D5
   me visite al fin...

   D5              C5        B5       D5
   Ese dia piensa en mi.
   D5              C5        B5       D5
   Descansare en paz, amigo.
   D5              C5        B5       D5
   Calla, no llores por mi.
   D5              C5        B5       D5
   He escogido mi camino.

   ...
VERSION 2 Acordes de fjruperez@hotmail.com. Comentario "ESTA CANCIÓN ES ACOJONANTE, PERO LA OXTIA UNA LETRA DE PUTA MADRE Y UNA MÚSICA PARA DARLE AL YOSI DOS BESOS EN EL MOSTACHO:
   D5              C5        Bb      C
   El dia que se acabe el tiempo,
   D5              C5        Bb      C
   cuando el sol se apague para mi.
   D5              C5        Bb      C
   El dia de la eterna noche sin sueños,
   D5              C5        Bb      C
   cuando por fin deje de sufrir.
   G5              C5        A5      Bb5
   El dia en que de madrugada la dama
   A5
   me visite al fin...


   D5              C5        Bb      C
   Ese dia piensa en mi.
   D5              C5        Bb      C
   Descansare en paz, amigo.
   D5              C5        Bb      C
   Calla, no llores por mi.
   D5              C5        Bb      C
   He escogido mi camino.

   ...

De aqui hasta abajo de la pagina algunos acordes procedente de Made in Spain http://mades.kaos.es para dudas comentarios y ese tipo de cosas escribid a quien los ha transcrito fjruperez@hotmail.com.


http://come.to/suaves

*TOMAS EL TENDERO

VERSO
(Tomás sale cada mañana...)
G5 D5 C5 E5(5TH) D5

CAMBIO
(De qué sirve una barca...)
E5 G5 C5 A5

ESTRIBILLO
(Tomás el futuro vacío...)
G5 C5 D5



http://come.to/suaves

*ANTISOCIAL


INTRO
e |-------------0--------------|--------------------|
B |----3-----------3-----------|--------------------|
G |----0-----0-----------------|--------------------|
D |----2-----------------------|-----5--------------|
A |----3-----------------------|-----3--------------|
E |----------------------------|--------------------|

         Alberto                    Montxo

e |------------0---------------|--------------------|
B |----3----------3------------|--------------------|
G |----0----0------------------|--------------------|
D |----0-----------------------|--------------------|
A |----2-----------------------|-----5--------------|
E |----3-----------------------|-----3--------------|

VERSO
D5 A#5 C5 A5 D5 A5

 Alberto hace el palm mute y Montxo toca las quintas al aire.
   Toda la cancion es igual, excepto:

e |----------------------------------------------------------|
B |----------------------------------------------------------|
G |----------------------------------------------------------|
D |--------------3--------7-------7--5-----------------------|
A |--------3--5-----5--3--5-------5--3--5--3-----------------|
E |-----5-------------------------------3--1-----------------|

                                 Antisocial...

e |--------------------------------------------------------------|
B |--------------------------------------------------------------|
G |--------------------------------------------------------------|
D |--------------3--------7-------7--5---------------------------|
A |--------3--5-----5--3--5-------5--3--0--3--0--3--5--3---------|
E |-----5-------------------------------------------3--1---------|

                                 Piensas en tus años de ...

e |----------------------------------------------------------|
B |----------------------------------------------------------|
G |----------------------------------------------------------|
D |--------------3--------7-------7--5-----------------------|
A |--------3--5-----5--3--5-------5--3--5--3-----------------|
E |-----5-------------------------------3--1-----------------|

                                  Antisocial...

e |---------------------------------------------------------------------|
B |---------------------------------------------------------------------|
G |---------------------------------------------------------------------|
D |----------3--------7-------7--5-----------------------------------5--|
A |----3--5-----5--3--5-------5--3--5--------------------------------3--|
E |-5-------------------------------3--0--3--0--3--0--3--0--3--0--3-----|

                                 Siglos y siglos de malicia...



   Durante el solo     Despues del solo

e |----------------|---------------------------------------------------|
B |----------------|---------------------------------------------------|
G |----------------|---------------------------------------------------|
D |----5----7------|--7--------5-----------------7-----------------7---|
A |----3----5------|--5--------3--2--0--3--3--0--5--2--0--3--3--0--5---|
E |----------------|---------------------------------------------------|




http://come.to/suaves

*OURENSE-BOSNIA

VERSION 1


Arpegio :
    C                       F   
e |-----------------------|-------------------------|
B |------------1----------|-------------1-----------|
G |----------0---0--------|----------2-----2--------|
D |-------2---------2-----|-------3-----------3-----|
A |----3---------------3--|----3-----------------3--|
E |-0---------------------|-1-----------------------|


Los Acordes, son los mismos que en el arpegio, C y F

Lo siento, ya se me olvidaba poner el riff de la parte que va a toda leche...

Basicamente es una quinta y una cuarta pero con algo rato, os pongo
ahi el esquema de los "acordes" y vosotros ya sacais el ritmillo.

    G5   G5*  A4   A4*
e |---------------------|
B |---------------------|
G |---------------------|
D |-5----5----5----5----|
A |-5----5----5----5----|
E |-3----4----5----6----|
No se si estos acordes tienen un nombre especifico pero bueno...

Basicamente el riff es: G5 G5* A4 A4*

VERSION 2

VERSO
(Su nombre era Isaac...)
|----------------------------0--------|
|------------0-----------0-----0------|
|--------0-----0---0---2---2-----2----|
|------2---2-----2---3----------------|
|----3--------------------------------|
|-------------------------------------|

CAMBIO
(Toques de trompetas...)
    C      G  F       G  C        G  F 
|------------------------------------------------|
|------------------------------------------------|
|------------------------------------------------|
|------------------------------------------0-----|
|----------------------------------------2---2---|
|--------------------------------------3---------|

CAMBIO
(No crié a mi hijo...)
E5 C5 C#5 D5




http://come.to/suaves

*DULCE CASTIGO

Akí va la TAB de "Dulce Kastigo", kon su auténtiko riff destrozamuñeka derecha. Sugerencias, korrekciones, besos, abrazos y grandes risas a zaphire@oocities.com

Intro:

   A5              C5              G5              D5
e |------------------------------------------------------------------|
B |------------------------------------------------------------------|
G |--------5-5-------------5-5-------------7-7-------------7-7-------|
D |----7-7-----7-7-----5-5-----5-5-----5-5-----5-5-----7-7-----7-7---|
A |0-0-------------3-3-----------------------------5-5---------------|
E |--------------------------------3-3-------------------------------|

y digo ke es destrozamuñekaderecha porke para ke suene komo en el disko
hay ke tokarlo kon Palm Mute y púa-kontrapúa. Pa 'bernos matao...

Mientras kanta (la letra es la leche) os destrozáis la muñeka y tokáis esto:

   A5              C5              G5              D5
e |------------------------------------------------------------------|
B |------------------------------------------------------------------|
G |--------5-5-------------5-5-------------7-7-------------7-7-------|
D |----7-7-----7-7-----5-5-----5-5-----5-5-----5-5-----7-7-----7-7---|
A |0-0-------------3-3-----------------------------5-5---------------|
E |--------------------------------3-3-------------------------------|

   A5              C5              G5              D5
e |------------------------------------------------------------------|
B |---------------------------------------------------8-7------------|
G |--------5-5-------------5-5-------------7-7-----7--7-7------------|
D |----7-7-----7-7-----5-5-----5-5-----5-5-----5-5-7-----------------|
A |0-0-------------3-3-----------------------------5-----------------|
E |--------------------------------3-3-------------------------------|

Para el estribillo va kambiando entre E y F, akabando kon Palm Mute a
sako en G, y luego:

   A5        C5        D5        C5
e |------------------------------------------------------------------|
B |------------------------------------------------------------------|
G |2--5-4-2--5--5-4-2--7--7-5-4--5--5-4-2----------------------------|
D |2---------5---------7---------5-----------------------------------|
A |0---------3---------5---------3-----------------------------------|
E |------------------------------------------------------------------|
Y ya solos virtuosos y apokalíptikos del Cereijo sobre los akordes de la Intro. Joer, kada vez hago más rayitas, esto no puede ser...


http://come.to/suaves

*EL AFILADOR


VERSO
(Está regresando a casa...)
E5 G5 C5 D5

CAMBIO
A5 B5 E5

ESTRIBILLO
(Noche, niebla, hora secreta...)
D5 A5 G5 D5 E5
(Soitario soñador...)
C5 D5





http://come.to/suaves

*SIEMPRE IGUAL

VERSION 1 Básikamente hay dos ritmos, uno ke es el ke suena en la introducción sin la batería y durante el solo, y otro ke se toka en los kambios, kuando dice: "Te arrastras...", o "Ké ha pasado Rodríguez...". Oíd la kanción y lo veréis.
   Intro :

   E       A       F#m     B

   y ese segundo ritmo

   D       A       F#m     B

Komo veis, todo es "siempre igual.." :-)
Komentarios, krítikas, korrekciones, kalimotxo, petas, lo ke sea, a zaphire@oocities.com

VERSION 2
(ocho de la mañana...)
E5(5 CUERDA) A F#m B

y en el kambio

(te arrastras al labavo...)
D A F#m B
Dudas y sugerencias fjruperez@hotmail.com


http://come.to/suaves

*NO ME MIRES(¿Hay Alguien ahí?)

Tema tabulado del Disco ¿Hay Alguien Ahí? y no del Santa Compaña

VERSO :
    A5             G5
|-----------------------------------------------|
|-----------------------------------------------|
|---9--7--5--4--2-------------------------------|  X8
|------------------9--7--5----------------------|
|-----------------------------------3--0--------|
|---------------------------0--3^0--------------|

NO ME MIRES CUANDO CRUCES
POR LA ACERA DE MI CALLE
NO ME MIRES CUANDO PASES
POR ESTA CALLE SIN LUCES

ESTRIBILLO
|---------------------------------------------------------|
|---------------------------------------------------------|
|--------------4*------------4*-----------4\5-------------|
|----7---------4*----7-------4*-----7-----4\5---5--6------|
|----7---------2*----7-------2*-----7--0--2\3---5--6------|
|----5---------------5--------------5-----------3--4------|
              P.M.       P.M.

* tocar infinitas veces

MIRAME CUANDO LA LUNA
SE ASOMA POR LA VENTANA
Y TE DEJAS ABRAZAR
ACOSTADA AQUI EN MI ALMOHADA

VERSO 
    A5             G5
|-----------------------------------------------|
|-----------------------------------------------|
|---9--7--5--4--2-------------------------------|  X8
|------------------9--7--5----------------------|
|-----------------------------------3--0--------|
|---------------------------0--3^0--------------|

NO ME MIRES CUANDO ESCUCHES
AL RELOJ DECIR QUE ES TARDE
NO TE ESCONDAS NO TE MARCHES
COMO ESTRELLAS ENTRE NUBES

ESTRIBILLO
|---------------------------------------------------------|
|---------------------------------------------------------|
|--------------4*------------4*-----------4\5-------------|
|----7---------4*----7-------4*-----7-----4\5---5--6------|
|----7---------2*----7-------2*-----7--0--2\3---5--6------|
|----5---------------5--------------5-----------3--4------|
              P.M.       P.M.

* tocar infinitas veces

MIRAME CUANDO LA LUNA
SE ASOMA POR LA VENTANA
Y TE DEJAS ABRAZAR
ACOSTADA AQUI EN MI ALMOHADA


AQUÍ VIENE UN PUNTEO QUE TODAVÍA NO HE SACADO 
ENTERO PERO TENGO ESTE TROZO

|------------------------------------
|----7--7--7---7--8--10--8--8--7--5--
|------------------------------------
|------------------------------------
|------------------------------------
|------------------------------------

------------------------------------|
---5--7--8--7--5--3--5--5--3--2-----|
---------------------------------2--|
------------------------------------|
------------------------------------|
------------------------------------|

VERSO 
    A5             G5
|-----------------------------------------------|
|-----------------------------------------------|
|---9--7--5--4--2-------------------------------|  X8
|------------------9--7--5----------------------|
|-----------------------------------3--0--------|
|---------------------------0--3^0--------------|

QUE PENA ME DA ¡QUE PENA!
CUANDO TE VEO MARCHAR
QUE SOLO Y TRISTE ME DEJAS
CUANDO LA NOCHE SE VA

ESTRIBILLO
|---------------------------------------------------------|
|---------------------------------------------------------|
|--------------4*------------4*-----------4\5-------------|
|----7---------4*----7-------4*-----7-----4\5---5--6------|
|----7---------2*----7-------2*-----7--0--2\3---5--6------|
|----5---------------5--------------5-----------3--4------|
              P.M.       P.M.

DIME POR QUE NO TE QUEDAS
ESTA VEZ UN POCO MÁS
ES QUE QUIERES QUE ME MUERA
O ES QUE ME QUIERES MATAR

|--------------------------|
|--------------------------|
|----------4\5-------------|
|----7-----4\5---5--6------|
|----7--0--2\3---5--6------|
|----5-----------3--4------|

QUE ME MUERA
O ES QUE ME QUIERES MATAR





http://come.to/suaves

*NO ME MIRES (Santa Compaña)

Durante toda la canción hay 2 guitarra, una que es la que he puesto y la que mas se oye y otra que no la he puesto pero lo que hace es tocar todo los acordes de forma arpegiada:
versos-> LAm MIm  estribillo->LAm REm MIm REm MIm LAm DO SOL MI

[ PARTE A1                                         FIN A1 ]
|----0-----------------------------0-------------<12>-------|
|------3-1-0-------0-------------1---3-1-0----------<12>----|
|--2---------(2)-----2-0---------0---------(2)--------<12>--|  
|--2-------------2---------------0-------------2------------|
|--0-------------2---------------2-------------2------------|
|----------------0-------0^3^0^3---------------0------------|


[ PARTE A2                                     FIN A2 ]  
|----0-----------------------------0-------------<12>--|
|------3-1-0-------0-------------1---3-1-0-------------|
|--2---------(2)-----2-0---------0---------(2)---------|  
|--2-------------2---------------0-------------2-------|
|--0-------------2---------------2-------------2-------|
|----------------0-------0^3^0^3---------------0-------|

 
Esto lo toca        |-------3--5---7--|
la 2ª guitarra,     |--5--5--------0--|
esta en línea       |-----------------|
con la parte A2     |-----------------|
                    |-----------------|
                    |-----------------| 
   

[ PARTE B                      FIN B ]
|----0----------------------0--------|
|------3-1-0-------0------0---0------|
|--2---------(2)-----2-0--------0----| 
|--2-------------2----------------0--|
|--0-------------2-------------------|
|----------------0-------------------|
 
 

[ PARTE C1                                                FIN C1 ]
|----------1--1-0-------(3)--3-3-3-3---1--1-1-1-1---(3)-3-3-3-3---|
|----------3------3-(1)-(0)---0-0-0-0--3---3-3-3-3--(0)--0-0-0-0--|
|--2---2---2-------------0-----0-0-0---2----2-2-2----0----0-0-0---|  
|--2---2---0-------------2-------------0-------------2------------|
|--0^3^0^3--------------------------------------------------------|
|-----------------------------------------------------------------|
 
  
[ PARTE C2                                  FIN C2 ] 
|----(1)-------(1)---1-X-1-1---0--(3)-(3)-(3)-(3)-----|
|-(1)-----------1----1-X-1-1---0--(0)--(0)-(0)-(0)----|
|--2-----------0--X--0-X-0-0---0--(0)----(0)-(0)-(0)--|  
|--2----------2---X--0-X-0-0---2----------------------|
|--0----0-2-3-----X--2-X-2-2---2----------------------|
|--------------------3-X-3-3---0----------------------|

 
PARTE A1
PARTE A2

PARTE B
NO ME MIRES CUANDO CRUCES 
PARTE B 
POR LA ACERA DE MI CALLE
PARTE B 
NO ME MIRES CUANDO PASES 
PARTE B 
POR ESTA CALLE SIN LUCES 
 
PARTE C1
MIRAME CUANDO LA LUNA
SE ASOMA POR LA VENTANA 
PARTE C2
Y TE DEJAS ABRAZAR
ACOSTADA AQUI EN MI ALMOHADA 

PARTE A2  

PARTE B
NO ME MIRES CUANDO ESCUCHES 
PARTE B 
AL RELOJ DECIR QUE ES TARDE
PARTE B 
NO TE ESCONDAS NO TE MARCHES 
PARTE B 
COMO ESTRELLAS ENTRE NUBES

PARTE C1
MIRAME CUANDO LA LUNA
SE ASOMA POR LA VENTANA
PARTE C2
Y TE DEJAS ABRAZAR
ACOSTADA AQUI EN MI ALMOHADA


Este es el solo, los acordes que están arriba 
son los que hace la 2ª guitarra 

  RE         MIm            MIm          DO     SOL  
|---------------------------------------------------
|---6s7-7-7--5^7s8-7-7^5-5--5s8-7-5-3-5--7^8-6-5----
|----------------------------------------6^7-5-4-4--
|------------------------------------------------5--
|---------------------------------------------------
|---------------------------------------------------

 RE         Mim             SOL                     DO       SOL    
--------------------------------7-11-7---------------------------|
--6^7-7-7-7-8s10-8-8-7-7s5--7^8--------8-7-5-8-5-3--7^8-6-4^5----|
----------------------------------------------------6^7-5-3^4-4--|
--------------------------------------------------------------5--|
-----------------------------------------------------------------|
-----------------------------------------------------------------|


PARTE B con la 2ª guitarra haciendo esto:

|-0------------------|
|---3^5---0----------|
|-----------0^2------| 
|---------------0^2--|
|--------------------|
|--------------------|

 
PARTE B 
QUE PENA ME DA ¡QUE PENA! 
PARTE B
CUANDO TE VEO MARCHAR
PARTE B
QUE SOLO Y TRISTE ME DEJAS 
PARTE B
CUANDO LA NOCHE SE VA
 
PARTE C1
DIME POR QUE NO TE QUEDAS
ESTA VEZ UN POCO MÁS 
PARTE C2
ES QUE QUIERES QUE ME MUERA
O ES QUE ME QUIERES MATAR
PARTE C2
QUE ME MUERA
O ES QUE ME QUIERES MATAR


PARTE A1 con la 2ª guitarra haciendo esto:

|--5-7-8-7-7^8-7-5--5-7-------5-7-8-7-7^8-7-5--5-7-6s7--|
|----------------------6s5------------------------------|
|-------------------------------------------------------|
|-------------------------------------------------------|
|-------------------------------------------------------|
|-------------------------------------------------------|

|-------0--|
|-------1--|
|-------2--|  
|-2-----2--|
|--3-2--0--|
|----------|

Bueno espero que os suene, si tenéis alguna duda o queréis contadme que tal os suena o para la que queráis, Javi Lara mi e-mail es mosquito@tinn.net


http://come.to/suaves

*NO PUEDO DEJAR EL ROCK


VERSO
|--------------------------|
|--------------------------|
|-------------------7------|
|----7----4-----2---7------|
|----7----4-----2---5------|
|----5----2-----0----------|

PUEDE LA ARENA IR HACIA ARRIBA EN EL RELOJ
PUEDES HACER QUE NUNCA SALGA EL SOL
PUEDE LA SUERTE LLEGAR A TU RINCÓN
EL PARAISO HACE TIEMPO QUE CERRÓ

PUENTE
|-----------------|
|-----------------|
|----4------------|
|----4-----2------|
|----2-----2------|
|----------0------|

PUEDES ATRAPAR EL VIENTO
LLEVAR A CASA EL MAR
EVITAR QUE PASE EL TIEMPO
PERO NO PUEDES NO PUEDES DEJAR

ESTRIBILLO
|-------------------|
|-------------------|
|---------7----9----|
|----7----7----9----|
|----7----5----7----|
|----5--------------|

NO PUEDES DEJAR EL ROCK

VERSO
|--------------------------|
|--------------------------|
|-------------------7------|
|----7----4----2----7------|
|----7----4----2----5------|
|----5----2----0-----------|

PUEDE LA LLUVIA DE AYER MOJARTE HOY
Y LAS ESTRELLAS ENTRAR EN TU HABITACIÓN
PUEDE LA NOCHE LLEGAR A VER EL SOL
EL PARAISO HACE TIEMPO QUE CERRÓ

PUENTE
|-----------------|
|-----------------|
|----4------------|
|----4-----2------|
|----2-----2------|
|----------0------|

PUEDES ATRAPAR EL VIENTO
LLEVAR A CASA EL MAR
EVITAR QUE PASE EL TIEMPO
PERO NO PUEDES NO PUEDES DEJAR

ESTRIBILLO
|-------------------|
|-------------------|
|---------7----9----|
|----7----7----9----|
|----7----5----7----|
|----5--------------|

NO PUEDES DEJAR EL ROCK



http://come.to/suaves

*POBRE JUGADOR

[RIFF A
    A    C    G    E    A  C  G  E  E.............
E ---------------------------------------------------|
B ---------------------------------------------------|
G -------5-x---------------5-------------------------|
D --7-x--5-x--5-x--2-x--7--5--0--2--2-2-2-2-2-2-2-2--|
A --7-x--3-x--5-x--2-x--7--3--0--2--2-2-2-2-2-2-2-2--|
E --5-x-------3-x--0-x--5-----0--0--0-0-0-0-0-0-0-0--|

                                         FIN A] 
    A    C    G    E    A  C  G  E  
E ----------------------------------------------|
B ----------------------------------------------|
G -------5-x---------------5--------------------|
D --7-x--5-x--5-x--2-x--7--5--0--2--------------|
A --7-x--3-x--5-x--2-x--7--3--0--2--------0--3--|
E --5-x-------3-x--0-x--5-----0--0--0--3--------|

[ RIFF B                                                           FIN B ]   
    F   G   F   G   C   C  D A   A  E  F  G  G .............
E ------------------------------------------------------------------------|
B ------------------------------------------------------------------------|
G ------------------5-X-5--7----------------------------------------------|
D --3---5---3---5---5-X-5--7-7-X-7--2--3--5--5-5-5-5-5-5-5-5--------------|
A --3---5---3---5---3-X-3--5-7-X-7--2--3--5--5-5-5-5-5-5-5-5--------0--3--|
E --1---3---1---3------------5-X-5--0--1--3--3-3-3-3-3-3-3-3---0--3-------|

  ARREGLOS
E -----------------------|----|-------------------------|----|
B -----------------------|----|-------------------------|----|
G --------4L5L4----------|----|---------7L8L7-----------|----|
D --6L7-7-------7-5------|-x2-|--9L10-10------10-9------|-x2-|
A ------------------(7)--|----|-------------------(10)--|----|
E -----------------------|----|-------------------------|----|



EMPIEZA CON EL [RIFF A] 2 VECES

DESPUES LA SECUECIA SIEMPRE ES LA MISMA:
       [RIFF A]
       [RIFF B]
       [RIFF A] CON LOS ARREGLOS

LA ULTIMA PARTE QUE ES DONDE HACE UN PEDAZO DE SOLO QUE NO HE SACADO PRIMERO ES: 
       [RIFF A]
DESPUES HASTA EL FINAL 
       F  G  A  D   

SI TENEIS ALGUNA DUDA O OTRA FORMA DE TOCARLA O PREGUNTARME 
LO QUE QUERAIS MI DIRECCION DE CORREO ES mosquito@tinn.net JAVI LARA


http://come.to/suaves

*SI PUDIERA

VERSION 1
El Yosi se nos pone filosófiko...

  Intro:
        Si sois afortunados y tenéis un pedal de Chorus, pisadlo y haced
   arpegios sobre
G	Am	Bm	C

Aluego mientras kanta y kon ditorsión se repite esto:

A	D	G	C
A	D	G	C   D

Y luego kambia:

A           D        G     			  C   
Si allí vendieran billetes para el tren de otra oportunidad

A       D      B		    C
Enkargaría un ticket de ida a la estación perdida

A#        C		     D	
Donde mi vida fue a deskarrilar

Y para el estribillo los akordes de la Intro.
No sé si me dejo algo, pero la verdad es ke voy algo ciego así ke si falta algo me lo decís (joder, el vino de oferta del Dia kada día es peor). Lo ke sea a zaphire@oocities.com

Version 2
INTRO (SIN DISTORSIÓN)
|-----3-----------------------0-----------3-------|
|-------3---------1^0-----------3-----------3-----|
|---------0-----2-----2-----0-----0-----0-----0---|
|-------------2-----------0-----------2-----------|
|-----------0-----------2-----------3-------------|
|---3---------------------------------------------|

VERS0 (DISTORSIÓN)
|-------------------------------------------------------|
|-------------------------------------------------------|
|--------7-------5-------7-------5\7-------7-------5----|
|----7---7---5---5---7---7---5---5\7---7---7---5---5----|
|----7---5---5---3---7---5---5---3\5---7---5---5---3----|
|----5-------3-------5-------3---------5-------3--------|

SI PUDIERA
A LA TIENDA DE LOS SUEÑOS
IR A COMPRAR
CON POCO DINERO
TODO LO QUE HASTA AHORA
AUN PUDE GANAR
Y SI ALLI VENDIERAN
BILLETES PARA EL TREN
DE OTRA OPORTUNIDAD 

PUENTE
|----------------------5----------6-----------|
|------------------------5----------6---------|
|--------7---4--5----------5----------6---7---|
|----7---7---4--5-------------------------7---|
|----7---5---2--3---7----------8----------5---|
|----5--------------5----------6--------------|

ENCARGARÍA
UN TICKET DE IDA
A LA ESTACIÓN PERDIDA
DONDE MI VIDA FUE A DESCARRILAR

OTRA VEZ EL VERSO Y EL PUENTE Y DESPUÉS:

ESTRIBILLO
|--------------------|
|--------------------|
|------------4---5---|
|----5---7---4---5---|
|----5---7---2---3*--|
|----3---5-----------|

QUIEN NO HIZO.......

LA SEGUNDA GITARRA TOCA LA INTRO
*EN UNO DE LOS SALTOS A ESTE ACORDE SE TOCA(PARA ACABAR EL ESTRIBILLO):
|-----|
|-----|
|--7--|
|--7--|
|--5--|
|-----|
Dudas comentarios y demás a fjruperez@hotmail.com Haber si alguien saca más canciones de los Suaves...que son la ostia

VERSION 3 Aqui va el tab de la mejor balada del rock español y la mejor letra (como no, de Los Suaves). Disfrutad de esta cancion tan cojonuda, y a ver si os animais y mandais algun otro tab de Los Suaves ... que hace falta !!
INTRO

------3------------------------------0---------------3-------------------
--------3-------------1------------0---3-----------1---3-----------2-----
----------0---------0---0--------0-------0-------0-------0--------VECES--
------------------2-------2----------------------------------------------
-------------0-----------------2--------------3--------------------------
--3----------------------------------------------------------------------



A		D	  G		      C		
	Si pudiera, a la tienda de los sueños ir a comprar
A	     D	   G			  C			
con poco dinero, todo lo que hasta ahora pude ganar
A	     D	   G			  C	
si alli vendieran, billetes para el tren de otra oportunidad
A	D   G			   C
encargaria un ticket de ida a la estacion perdida
A	   C		     D	
donde mi vida fue a descarrilar.



(con los mismos acordes, mismo ritmo)

si pudiera, desde aquel momento volver a empezar,
ilusiones, castillos de arena en el fondo del mar,
esperanzas, asi que eso es todo, se me marcho el tiempo
y es ya tarde, tengo miedo de irme a la sombra del cielo
me queda tan poco y tanto que arreglar ...


ESTRIBILLO

G		  D	      B	    D		     G	
	Quien no hizo alguna vez locuras por una mujer
	   D		B    D		      G	
Quien no quiso alguna vez algo que no pudo tener
	  D	      B	     D		   G					
Quien no hizo alguna vez promesas a una mujer
	   D	       B	C 
Quien no quiso alguna vez ....
A	 D
Si pudiera ... 

*************

ahora vuelve otra vez al ritmo de la primera estrofa y despues de la tercera
y cuarta estrofa hay otro estribillo, que obviamente es igual que éste ...

A mi la verdad, que me suena bien como la he sacado ... pero si alguien tiene alguna correccion o comentario o algo por el estilo siempre estoy disponible en iatienzau@nexo.es IÑAKI.








http://come.to/suaves


- * -
1