Source: geocities.com/sunsetstrip/stage/7915

               ( geocities.com/sunsetstrip/stage)                   ( geocities.com/sunsetstrip)    
=================LAS PISADAS=====================
+-----------------------------------------------+
| Hombres G                                     |
| TE QUIERO                                     |
| David Summers                                 |
| Devuelveme a mi chica (1985)                  |
+-------------------------------------------TAB-+
=============DEL ROCK EN ESPA~OL=================

ESTE ES EL SOLO DE LA INTRODUCCION :

E--------------------------------------------|-------------------------------------------------
B--------------------------------------------|-------------------------------------------------
G--------------------------------------------|-------------------------------------------------
D------0--0-0------0-00-----0-----0------0---|--------0-0-----4-4-2----------------------------
A--0-2---------0-2-------0-2--0-2---0-2------|---0-2-----0-2-----------4-2-----4-2-0----0-4-2--
E--------------------------------------------|-----------------------2-2-----2-2-------3-3-----

E------------------------------------------------------------------------------
B------------------------------------------------------------------------------
G------------------------------------------------------------------------------
D-------------------2-4-2--------------0---------------------------------------
A--0-0-0-2-4/5-5--------0-0-0--2-4---------------------------------------------
E------------------------------------------------------------------------------


0
   ESTE ES EL SOLO DE LA CANCION (el ligado lo escribo asi  * )
E------------------------------------------------------------------------------
B--10*12---10*12-12-10---------------------------------------------------------
G----------------------------11-12-11--9/7----7-9/11-11-11-9*11----------------
D----------------------------------------------9-------------------------------
A------------------------------------------------------------------------------
E------------------------------------------------------------------------------


E------------------------------------------------------------------------------
B---------------------------------------------------------9/12-12-12-12-10-----
G-9-9-9*7----------------------------------7-9~9~-7----------------------------
D-----------9-7-9-7-9------------------7-9-------------------------------------
A-----------------------9-10-9-7---7-9-----------------------------------------
E----------------------------------10------------------------------------------

E--7/10-12-10-10/17-15-14-17-17-17-17/19-17-17/19--19/17-----------------------
B------------------------------------------------------------------------------
G------------------------------------------------------------------------------
D------------------------------------------------------------------------------
A------------------------------------------------------------------------------
E------------------------------------------------------------------------------

E----15-15-15*14-------------10---------12-------10-12/14-14-14--12------------
B--------------------15--10*12----10*12----10*12-------------------------------
G------------------------------------------------------------------------------
D------------------------------------------------------------------------------
A------------------------------------------------------------------------------
E------------------------------------------------------------------------------

=================================================
Transcripcion de DAVID A. GARCIA.
(D197@hotmail.com)