I like free....
This banner was supplied by SAFE Audit

GUITAR TAB

All songs are in alphabetical order. I will create direct links to each song when I have the time. Please be patient while I TAB the remaining songs, it does take time.

Click here for the table of chords if you can't read this music properly.

ANIMAL
Introduction
|------------------------------------------
|-----7-----5---5-----7-----5---5-----
|------------------------------------------
|-4-4---4-4---4---4-4---4-4---------
|------------------------------------------
|------------------------------------------


Verse & Prechorus
F#5   E5   A5   B5

Chorus
D5   E5(high)   F#5   A5

Solo
|-----------------------------------------------------------------------------------------------------------------------------7--9--7---------------
|-------14-------14--12-12-12-11------------9--9-10-10>12-12-10-9--------10----------------10--------7-------------------------
|-11-11----11-11-----------------11-------9-----------------------9----9----9----------------------9-----9---8--------------8--9--11---
|-----------------------------------11--9----------------------------7--------7------------------------7------------------------------------------
|------------------------------------------------------------------------------------------------------------------------------------------------------
|------------------------------------------------------------------------------------------------------------------------------------------------------

BENEDICT
Intro
F#5   D5   E5

Verse
F#5   A#5   B5   F#5   D5   F#5   D5   F#5

Chorus
B5   D5   F#5

Solo
|
----------------------------------------------------- --------------------------------------------------------------------------------------------------------
|-------------------------------------------------------------------------------------------------------------------------14--14--14--14--15--14------
|----------------------------------------------------9-11-11-11^12^11-11^12^11 11^12^11----- THEN----------------------------------14--
|--12---12---12----12----12----12----12-------------------------------------------------------------------------------------------------------------
|----------------------------------------------------- --------------------------------------------------------------------------------------------------------
|--------------------------------------------------------------------------------------------------------------------------------------------------------------

BLAME
BOSCO
CLINT
CONGRATULATIONS
DENVER
DID YOU REALLY?
FEET TOUCH THE GROUND
FERRIS WHEEL
HAPPIER SAD
HARPOON
I RAN
IN ORBIT
INVADERS
JERKS OF ATTENTION
LA DI DA DA
LEAVING HOME
LESS TRUSTED PAIN REMOVER
LINO
LOOK THAT WAY
LOVE AT LAST
MILITARY STRONGMEN
MISTER MASONIC
MONUMENT
PLEASE LEAVE
PUCK DEFENDER
RUN OF THE COMPANY
SUPERHERO 6
SMILER
SPOIL THE SHOW
SLIGHTLY ODWAY
SLOW DOWN
SUPPOSED TO SAY
SIMPLE
SLOT CAR RACING
SKIN
STAR MACHINE
TEFLON
THOUGHT ABOUT IT
TRACKSUIT
TRAPDOOR
TWIGHLIGHT = DUSK
WEEKEND AWAY
WORK IN PROGRESS
YOU

1