Source: geocities.com/whyrendog2k

This starts at about is about 1:30, but is where my guitar war MP3 began...

First Rythm Part (X3)
E |-------------------------------|----------------------------------|
B |-------------------------------|----------------------------------|
G |------0------------------------|----------------------------------|
D |----4---4----2-2-2--1-1-1------|-2-2-2-1-1-1-2--------------------|
A |--2-------2--3-3-3--2-2-2------|-3-3-3-2-2-2-2--------------------|
E |-0-----------------------------|-------------0--------------------|
First Lead Part (X3) (tp)=trem picking
E |-------------------------------|----------------------------------|
B |-------------------------------|----------------------------------|
G |-(sl)9~------5(tp)--4(tp)------|-5(tp)-4(tp)-5(tp)-4(tp)-(sl)9~---|
D |-------------------------------|----------------------------------|
A |-------------------------------|----------------------------------|
E |-------------------------------|----------------------------------|
Pick scrape...(One track has the chords along with the A string, the other with G)
E |----------------------------------|----------------------------------|
B |----------------------------------|----------------------------------|
G |-----------12(tp)-11(tp)-9(A.H.)~-|-------11(tp)-9(tp)-7(A.H.)~------|
D |----------------------------------|----------------------------------|
A |-10-10-10--10(tp)-9(tp)-7(A.H.)~--|-9-9-9-9(tp)-7(tp)-5(A.H.)~-------|
E |-8--8--8--------------------------|-7-7-7----------------------------|
(2nd track has chords and E string harmony & chords)
E |-------------------------------|----------------------------------|
B |-------------------------------|----------------------------------|
G |----------9(tp)-7(tp)-5(A.H.)~-|-4h5-4(A.H.)~---------------------|
D |-------------------------------|----------------------------------|
A |-10-10-10----------------------|----------------------------------|
E |-8--8--8-----------------------|----------------------------------|

Other Rythm parts & chords
E |-------------------------------------|----------------------------------|
B |-------------------------------------|----------------------------------|
G |-------------------------------------|----------------------------------|
D |-2-2-2-2--2-2-2-2--------------------|-7-7-7-7--5-5-5-5-----------------|
A |-2-2-2-2--2-2-2-2-3-5-3-2-3-2-0------|-5-5-5-5--3-3-3-3-----------------|
E |-0-0-0-0--0-0-0-0--------------------|-5-5-5-5--3-3-3-3-----------------|
                                            (X3)     (X3)