Source: geocities.com/whyrendog2k

x2:(Main Theme that never comes back...)
E |-------------------------------|----------------------------------|
B |-------------------------------|----------------------------------|
G |----------------16----16/19~---|----------------------------------|
D |----17----19-------------------|----16---17----16-/17~-16~--------|
A |-------------------------------|----------------------------------|
E |-15----15----15----------------|-14----14---14--------------------|

                                       ring out 
E |-------------------------------|----15--------------------------24(bend up to G)|
B |-----------5~-----12~----------|-------15---------------------------------------|
G |-/5-4-4~-/5~--/12~-------------|12-14(up/hold\down)-/slide up-0-----------------|
D |-------------------------------|------------------------------------------------|
A |-------------------------------|------------------------------------------------|
E |-------------------------------|------------------------------------------------|

(Doubled w/same...)
E |-/15-14-------16-15-14---------|----------------------------------|
B |--------15-------------15------|----------------------------------|
G |-----------14-------------14---|-\12-\7-\5-4-5/7~-----------------|
D |-------------------------------|----------------------------------|
A |-------------------------------|----------------------------------|
E |-------------------------------|----------------------------------|

(Doubled in perfect 5ths...)  hammer ons & pulloffs:
E |-------5-7-5---5-7-8-----|-12-10-8-10-8--8-----------------------|
B |-----8-------8-----------|-------------10--10-8-7-8-7---7--------|
G |---7---------------------|----------------------------9---9-7-\5~|
D |-5-----------------------|---------------------------------------|
A |-------------------------|---------------------------------------|
E |-------------------------|---------------------------------------|

(Doubled in 3rds...)
E |------------------------------------------------------------------------|
B |-----5-8-5-------5-10-7-------7-12-8---------8-13-10---------10-13-/15~-|
G |---7-------7---7--------9---9--------11---11---------12----12-----------|
D |-5-----------5------------7-------------9---------------10--------------|
A |------------------------------------------------------------------------|
E |------------------------------------------------------------------------|
                              1 3 1 4 1  3  1 3 1  4  1

E |----------------------------------------------------------------------18-17----|
B |-------12-15-12----------12-15-17-13----------13-17-13----------13-17------ 18-|etc...
G |----14----------14----14-------------16----16----------16----16----------------|
D |-12----------------12-------------------14----------------14-------------------|
A |-------------------------------------------------------------------------------|
E |-------------------------------------------------------------------------------|
                       1  3  1  4  4  1  3  1  3  1  4  1  3  1  3  1  4   2 1  2   

Sweeps at 1:05:

E |----------14----------------14----------------14-19/24-19----------------19---------|
B |-------17----17----------17----17----------17-------------22----------22----22------|
G |----16----------16----16----------16----16-------------------21----21----------21---|
D |-14----------------14----------------14-------------------------19----------------19|etc.
A |------------------------------------------------------------------------------------|
E |------------------------------------------------------------------------------------|
     1  2  3  1  3  2  1  2  3  1  3  2  1  2  3  1  4  4  1  3  2  1  2  3  1  3  2  1

Vinnie Moore rip off at 1:30:
E |---------7-10-12-8------------------------12-15-17-14---------------------------------|
B |-------8-----------10------------------13-------------15----------13~-/15-13-12-------|
G |-----7----------------9-------------12-------------------14---------------------14----|
D |---9--------------------10-------14-------------------------16------------------------|
A |-10------------------------12-15-------------------------------17---------------------|
E |--------------------------------------------------------------------------------------|
cont...
E |-----------------------------------|
B |-----------------------------------|
G |-14(bend up and down)-12h14p11-12~-|
D |-----------------------------------|
A |-----------------------------------|
E |-----------------------------------|

*This song was basically an improv saved by doubling some appropriately boring phrasing to give it that "I meant to do that" sound (if you didn't notice).  If you are bored enough to play this tab, add some wammy dives to the slow parts because that's would I wanted to do, but don't have a wammy bar.