Source: geocities.com/whyrendog2k

  This is a song about dying and the soul's journey from the body to the outer reaches of the galaxy.  This has been documented by some who have died and come back to tell about it, I hope to experience this version of the tunnel ride when I go.   Some of the change up parts towards the end are things I wrote when I was 15 and just playing ideas by ear, I thought this would be a good song to use them in.  The leads are really For The Love Of God inspired, that was one of the first songs I learned before I knew any scales or anything.
x2                                   x2
E |-------2-----------2-----------2-|------0-----------0-----------0-|
B |-----5---5-------5---5-------5---|----3---3-------3---3-------3---|
G |---4-------4---4-------4---4-----|--2-------2---2-------2---2-----|
D |-2-----------2-----------2-------|0-----------0-----------0-------|
A |---------------------------------|--------------------------------|
E |---------------------------------|--------------------------------|
repeat

x4
E |-------------------------------------------------|
B |-------0-----------0-----------0-----------0-----|
G |-----2---2-------2---2-------2---2-------2---2---|
D |---2-------2---2-------2---2-------2---2-------2-|
A |-0-----------0-----------------------------------|
E |-------------------------2-----------2-----------|

E |-------------------------------|----------------------------------|
B |-----12-14-14p12--/10-9--------|-----12-14-14p12--/10-9-----------|
G |-/13--------------------11-9~--|-/13--------------------11-9------|
D |-------------------------------|-----------------------------11-9~|
A |-------------------------------|----------------------------------|
E |-------------------------------|----------------------------------|

x4
E |-----------------------------|
B |-------12-/17-12-/14-9-/12~--|
G |-----9-----------------------|
D |-/11-------------------------|
A |-----------------------------|
E |-----------------------------|

I guess you could count the x4s for the lack of tab here, if you want more, just ask.