Indietro

Luciano Ligabue

Balliamo sul mondo



La trascrizone degli accordi Ŕ amatoriale, ed Ŕ per uso privato,
in ogni caso non commerciale. Declino ogni responsabilitÓ derivante da un uso
improprio del materiale.
Tutti i testi e le musiche citati sono protetti da Copyright.


Intro: D G C Am

Riff si ripete anche durante il ritornello

e:----------------------|--5-----------------------|
B:----------------------|--------8-----7-----8-----|
G:-------------------7--|-----7-----7-----7-----7--|
D:----------------------|--------------------------|
A:----------------------|--------------------------|
E:----------------------|--------------------------|

------------------------|--5------------------------|
--7-----8--7------------|--------8------7-----8-----|
-----7----------7----7--|-----7-----7------7-----7--|
------------------------|---------------------------|
------------------------|---------------------------|
------------------------|---------------------------|

--------------------
--7-----8-----------
-----7---7\5~-------
--------------------
--------------------
--------------------



e:----------------------|--------------------------|
B:----------------------|--10----8-----7-----8-----|
G:-------------------7--|-----7-----7-----7-----7--|
D:----------------------|--------------------------|
A:----------------------|--------------------------|
E:----------------------|--------------------------|


------------------------|---------------------------|
--7-----8--7------------|--10----8------7-----8-----|
-----7----------7----7--|-----7-----7------7-----7--|
------------------------|---------------------------|
------------------------|---------------------------|
------------------------|---------------------------|

--------------------
--7-----8-----------
-----7-----5~-------
--------------------
--------------------
--------------------



A5: 577xxx
D5: x577xx
G5: 355xxx
C5: x355xx


Am
      D            G               C         Am
Siamo della stessa pasta bionda non la bevo sai.
         D              G           C           Am
Ce l'hai scritto che la vita non ti viene come vuoi.
         D                 G            C           Am
Ma e' la tua e per me e' speciale e se ti puo' bastare sai
           D         G           C               Am
Che se hai voglia di ballare uno pronto qui ce l'hai

Rit.
             D
Balliamo sul mondo!!
G             C         Am
Va bene qualsiasi musica
        D
cadremo ballando
G            C            Am
sul mondo lo sai si scivola.
               D     G
Facciamo un fandango
             C           Am
La' sotto qualcuno ridera'
                D           G C Am
Balliamo sul... mondo!!!!


Non ti offro grandi cose pero' quelle li' le avrai
Niente case ne' futuro ne' certezze, forse guai
Ma se dall'Atlantide all'Everest non c'e' posto per noi
Guido io in questo tango ci facciamo posto dai

Rit.

D
Balliamo sul mondo!!
G             C         Am
Va bene qualsiasi musica
        D
cadremo ballando
G            C            Am
sul mondo lo sai si scivola.
               D     G
Facciamo un fandango
             C           Am
La' sotto qualcuno fischiera'
                D           G C Am
Balliamo sul... mondo!!!!

[Riff principale]
[Assolo] la divisione in battute serve solo a separare
le parti del solo


    vvvvvvvv leva tremolo vvvv
e:---------|----------10----|---------------------------
B:-10------|-------5------5-|--8/10-8------8/10-8-------
G:--7------|--7--7--------5-|---------10-7--------10-7--
D:---------|----------------|---------------------------
A:---------|----------------|---------------------------
E:---------|----------------|---------------------------

e:---------------------10-/17---7-8-10-|-----------
B:-8/10-8---------10-8-----------------|-----------
G:--------10-7--7----------------------|-----------
D:-------------------------------------|--5-5-7-7--
A:-------------------------------------|--5-5-7-7--
E:-------------------------------------|-----------

e:------------                --10--
B:------------                ------
G:------------ si ripete e    ------
D:--5-5-5-7-7- finisce con    ------
A:--5-5-5-7-7-                ------
E:------------                ------

Fred e Ginger sono su una supernova sopra noi
Chiudi gli occhi e tieni il tempo  e sara' quasi fatta dai
C'e' chi vince e c'e' chi perde, noi balliamo casomai
Non avremo classe ma abbiamo gambe e fiato finche' vuoi

         vvvv     vvvv <--- leva del tremolo
e:--------------8-----
B:---10--8--------8---
G:-7----------5-------
D:--------------------
A:--------------------
E:--------------------

Ballando, ballando sul ballando sul mondo
Facendo, facendo un facendo un fandango
Ballando, ballando sul ballando sul mondo
Ballando, ballando sul ballando sul

Rit.
D
Balliamo sul mondo!!
G             C         Am
Va bene qualsiasi musica
        D
cadremo ballando
G            C            Am
sul mondo lo sai si scivola.
               D     G
Facciamo un fandango
             C           Am
La' sotto qualcuno applaudira'
                D           G C Am
Balliamo sul... mondo!!!!

[BASSO]

Strofa:

|--------------------------|--------------------------|
|--0--0--0--0--0--0--0-----|--------------------------|
|-----------------------0--|-----------------------2--|
|--------------------------|--3--3--3--3--3--3--3-----|

--------------------------|---------------------------|
--------------------------|---------------------------|
--3--3--3--3--3--3--3--3--|--3--0--2--00--3--0--4--0--|
--------------------------|---------------------------|

Nel ritonello la penultima battuta e' sostituita:

la prima volta da questa:

--------------------------|
--------------------------|
--3--0--0--0--0--0--0--0--|
--------------------------|
la seconda e la quarta volta:
--------------------------|
--------------------------|
--0--0--0--0--0--0--0--0--|
--------------------------|
e la terza:
--2--2--2--2--2--2--2-----|
-----------------------2--|
--------------------------|
--------------------------|

mentre nell'intermezzo suona:
--------------------------|
--------------------------|
--0----0----0----0----0---|
--------------------------|

da meta' del solo (dove la chitarra fa l'ultimo
pezzo *ritmato*) in poi diventa:

|--------------------------|
|--0--0--0--0--0--0--0-----|
|-----------------------0--|
|--------------------------|

--------------------------|------------------------0--|
--------------------------|---------------------------|
-----------------------2--|--3--3--3--33--3--3--3-----|
--3--3--3--3--3--3--3-----|---------------------------|

--2--2--2--2--2--2--2-----|---------------------|
-----------------------2--|--0------------------|
--------------------------|---------------------|
--------------------------|------------------1--|

--------------------|--------------------|
--------------------|--------------------|
-----------------2--|--3-----------------|
--3-----------------|--------------------|

---------------------------|
---------------------------| ripete quaattro o cinque
----0--2--0--3---0--4--0---| volte e pooi diventa:
---------------------------|

|--------------------------|--0--0--0--0--0--0--0-----|
|--0--0--0--0--0--0--0--4--|-----------------------0--|
|--------------------------|--------------------------|
|--------------------------|--------------------------|

--------------------------|---------------------------|
--------------------------|---------------------------|
--3--3--3--3--3--3--3--3--|--0--0--0--00--0--0--0--0--|
--------------------------|---------------------------|




   


Indietro

Home