Indietro

Ligabue

Bambolina e barracuda



BAMBOLINA E BARRACUDA

 D4: x00233

  G: 320033 |
Em7: 022033 |
  C: x32013 |


Intro: G C Em7 C

-------------|-------|----------|-0tr-||
-13--12------|-5tr---|----8-----|-1tr-||
-12--12--12\-|-5tr---|-7-----7\-|-0tr-||
-12--12------|-5tr---|-5--------|-----||
-------------|-------|-7--------|-3tr-||
-------------|-------|----------|-----||

----------------------------------------------
Riff:
  (G)     (C) (Em7)  (C)
                      vvvv
e:-8-8-7-----------------------
B:--------8--5------8---------
G:--------------7-7---7-5-----
D:----------------------------
A:----------------------------
E:----------------------------




Riff 1:
E--------------8----------------------8----------------------8--------------
B---8--10--12-----12--10---8--10--12-----12--10---8--10--12-----8--10--8----
G---------------------------------------------------------------------------
D---------------------------------------------------------------------------
A---------------------------------------------------------------------------
E---------------------------------------------------------------------------
Riff 2:
E---10---------8----------10---------8----------------------8---------------
B-------8--12-----12--8-------8--12-----12--10---8--10--12-----12--8--10--8-
G---------------------------------------------------------------------------
D---------------------------------------------------------------------------
A---------------------------------------------------------------------------
E---------------------------------------------------------------------------


nei punti dove fa:

Bb                                       F5  G4sus3
E la camera ora  un flacone d'odore di lei
[...]
Bb                              F5                           G4sus3
E ancora le sue mani, mani, mani, e ancora le sue labbra, labbra, labbra,
labbra



Giro : G C Em7 C

(Parlato)
La camera ha poca luce
e poi e' molto piu' stretta
di come da giu' immaginavo
ho pensato molto a lei qua dentro
l'immaginavo sempre sola
chissa' con che diritto poi

(cantato)
G
Mettiti a sedere
 C
Cosa vuoi da bere?
    Em7                     C
Quello che hai purche' sia forte.

Torno tra un momento!
Cerco un argomento
Recitare la mia parte.

(parlato)
gia' perche' c'e' sempre una
parte da recitare
si farebbe molto prima
se lei tornasse vestita soltanto del bicchiere
(cantato)
poi torna ed e' cosi' bella bella bella bella bella bella
nell'accappatoio
ed e' proprio quella quella quella quella quella quella
che io immaginavo
Bb                                          F
e la camera ora e' un flacone d'odore di lei
G
ba-ba-ba bambolina
C
ba-ba fammi giocare
Em7               C
ba-ba-ba-ba regalami un po' di calore
G
ba-ba-ba bambolina
C
ba-ba la' fuori e' dura
Em7                     C
ba-ba-ba-ba posso stare qui?
                G    C
Dai diamoci una scossa
                Em7 C G
Prendiamoci una scossa
(parlato)
la camera prende fiato pure lei
attraverso questi odiosi facciotti immortalati in troppi poster
la bambolina e' piu' vecchia di me
ma saranno i poster, le spalle, e la voce
che potrei essere suo zio
(Cantato)
dai non te ne andare.
Vuoi un po' dormire?
Vorrei tantoi che restassi un po'.
Si' che si puo' fare ma dovrei chiamare,
dimmi dove hai il telefono

E ancora le sue mani mani mani
E ancora le sue labbra labbra labbra
G
ba-ba-ba bambolina
C
ba-ba vuoi giocare?
Em7                  C
ba-ba-ba beh io sono qua un po' di calore
ba-ba-ba bambolina
ba-ba-ba barracuda
ba-ba ma dolcissima:
viviamo un po'assieme
moriamo un po' assieme

F                G
lei ha un brutto tic adesso
F            Am
Dice cose strane
F             G           D D4 D
E mi guarda come non vorrei

Adesso devo proprio andare
Ti chiamo prima o poi
Lo so che se voglio posso restare
Ma non insistere dai!

Dai aprimi la porta porta porta porta porta
Mi vuoi aprir la porta porta porta porta porta

ba-ba-ba bambolina
giu'-giu' quella pistola
ba-ba va bene resto qua cosa devo fare?
ba-ba-ba bambolina
ba-ba vuoi che parliamo
ba-ba non mi legare dai
E' solo un gioco nuovo?
Dimmi che e' un gioco nuovo

ba-ba-ba bambolina
giu'-giu' quella pistola
ba-ba va bene resto qua cosa devo fare?
ba-ba-ba bambolina
ba-ba-ba barracuda
ba-ba-ba ma dolcissima
viviamo un po'assieme
moriamo un po' assieme

 
   


Indietro

Home