Indietro

Black Sabbath

Lord of this world



La trascrizone degli accordi Ŕ amatoriale, ed Ŕ per uso privato,
in ogni caso non commerciale. Declino ogni responsabilitÓ derivante da un uso
improprio del materiale.
Tutti i testi e le musiche citati sono protetti da Copyright.


 


   Intro / hook                                              ect, ect...
e:---------------------------------------------------------------------------|
B:---------------------------------------------------------------------------|
G:-2--2-2-------------------------2--2-2-------------------------------------|
D:-0--0-0-------------------------0--0-0-------------------------------------|
A:--------3--2--3--5-----------2---------3--2--3--5--------------------------|
E:--------------------5--4--5------------------------5--4--5-----------------|




Main Riff                                           ect, ect...
e:---------------------------------------------------------------------------|
B:---------------------------------------------------------------------------|
G:2--2-----2----2--2----------------2--2-----2-------------------------------|
D:0--0-----0----0--0----0--3--0-----0--0-----0--0-0-0-0--2--4--5-------------|
A:------3-------------3----------3--------3--------------0--2--3-------------|
E:---------------------------------------------------------------------------|


                                 
                                 
  Bridge
e:------------------------------|
B:------------------------------|
G:------------------------------|
D:2----------------------3~--0--|
A:0--0-0------------------------|
E:--------3~--2~--3~--5---------|



   Another little part going into the Lead...
                    full                ect, ect...
e:--------------------------------------------------|
B:--------------------------------------------------|
G:-----------------7b(9)----------------------------|
D:------------------------7--5--0-------------------|
A:-0-2-3--5--3--5------------------3----------------|
E:--------------------------------------------------|




   


Indietro

Home