Indietro

Aerosmith

Permanent vacation



La trascrizone degli accordi Ŕ amatoriale, ed Ŕ per uso privato,
in ogni caso non commerciale. Declino ogni responsabilitÓ derivante da un uso
improprio del materiale.
Tutti i testi e le musiche citati sono protetti da Copyright.





E --2-2-2-2---------|-------------------|--2-2-2-2-----------
B --3-3-3-3---------|----2-2-0-2-2-0-2--|--3-3-3-3-----------
G --2-2-2-2---------|----2-2-0-2-2-0-2--|--2-2-2-2-----------
D --0-0-0-0---------|----2-2-0-2-2-0-2--|--0-0-0-0-----------
A ------------------|----0-0-0-0-0-0-0--|--------------------
E -----------0-2-3--|--4----------------|-----------0-2-3----


E ---------------------------------------------
B ----2-2-0-2----------------------------------
G ----2-2-0-2----------------------------------
D ----2-2-0-2----------------------------------
A ----0-0-0-0----------------------------------
E --4------------------------------------------




    C      D                      A

E --0------2--------------|--------------------
B --1------3--------------|-------2-2-0-2------
G --0------2--------------|-------2-2-0-2------
D --2------0--------------|-------2-2-0-2------
A --3---------------------|-------0-0-0-0------
E ---------------0--2--3--|--4-----------------

  Yeah,   yeah   I got to   get   a-way



      C                       G              F       C

E ----0--0--0--0--0--0--0--0--3--3--3--3-----1-1-1---0------
B ----1--1--1--1--1--1--1--1--0--0--0--0-----1-1-1---1------
G ----0--0--0--0--0--0--0--0--0--0--0--0-----2-2-2---0------
D ----2--2--2--2--2--2--2--2--0--0--0--0-----3-3-3---2------
A ----3--3--3--3--3--3--3--3--2--2--2--2-----3-3-3---3------
E ----------------------------3--3--3--3-----1-1-1----------

      I really need it really really need it San Tro-pez

si ripete quattro volte, alla quarta chide in si (b):
      C                       G              F       B

E ----0--0--0--0--0--0--0--0--3--3--3--3-----1-1-1----------
B ----1--1--1--1--1--1--1--1--0--0--0--0-----1-1-1---4------
G ----0--0--0--0--0--0--0--0--0--0--0--0-----2-2-2---4------
D ----2--2--2--2--2--2--2--2--0--0--0--0-----3-3-3---4------
A ----3--3--3--3--3--3--3--3--2--2--2--2-----3-3-3---2------
E ----------------------------3--3--3--3-----1-1-1----------

      really need it  man  I  got  to        get a   -way


l'assolo continua su qs ritmica.. 

     B   A   B    D           Db C  B  A  B

E -----------------------------------------------
B ---4---2---4----7-7-7-7-7-7-6--5--4--2--4------
G ---4---2---4----7-7-7-7-7-7-6--5--4--2--4------
D ---4---2---4----7-7-7-7-7-7-6--5--4--2--4------
A ---2---0---2----5-5-5-5-5-5-4--3--2--0--2------
E -----------------------------------------------






Indietro

Home