Indietro

LIgabue

Urlando contro il cielo



La trascrizone degli accordi Ŕ amatoriale, ed Ŕ per uso privato,
in ogni caso non commerciale. Declino ogni responsabilitÓ derivante da un uso
improprio del materiale.
Tutti i testi e le musiche citati sono protetti da Copyright.


  E4: 022200
 D5: x577xx
 E5: x799xx
 A5: 577xxx
 C5: x355xx
C#5: x466xx
 F5: x9aaxx (a=10)
 B5: 799xxx


[Intro]


  (D5)           (E5)
e:---------------------------------
B:---------------------------------
G:-7-7-7-7-7-7-7-7/9-9-9-9-9-9-9-9-
D:-7-7-7-7-7-7-7-7/9-9-9-9-9-9-9-9-
A:-5-5-5-5-5-5-5-5/7-7-7-7-7-7-7-7-
E:---------------------------------


[Riff principale]

(A5)            (D5)       (E5)
-------------------------------------------
-------------------------------------------
-----9-9-----9-9-----9-9----7-6---7-6------
-7-7-----7-7-----7-7------7-----7-----7----
-------------------------------------------
-------------------------------------------
    



e:------------
B:------------
G:-------7-6-- 
D:-7-7-7------
A:------------
E:------------



A
Come vedi sono qua:
      D   E
monta su, non ci avranno
A                             D
finche' questo cuore non crepera'
   E                       A    D E
di ruggine, di botte o di eta'.

Intermezzo:

e:-10-9\5-----------------
B:------------------------
G:------------------------
D:------------------------
A:--------0h2-/4-5-/9-7---
E:------------------------

A
C'e' una notte tiepida
             D
e un vecchio blues
   E
da fare insieme,
   A
in qualche posto accostero'
         D     E
e quella la' sara' la nostra casa, ma
F#m   C#m E   B     D
credo che meriti di piu'
E
ma intanto son qua io
F#m  C#m   E     B     D
e ti offro di ballarci su:
                              Bm
e' una canzone di cent'anni almeno.

Intermezzo:

e:---------------------------
B:-----5-----5-----5-----5~--
G:-6/7---6/7---6/7---6/7-----
D:---------------------------
A:---------------------------
E:---------------------------

D       E
Urlando contro il cielo.
A         D    E    A         D    E
Ooh, ooh, ooh, ooh, ooh, ooh, ooh, ooh.

A
Non saremo delle star
        D        E
ma siam noi, con questi giorni
A
fatti di ore andate per
       D   E
un weekend e un futuro che non c'e'.
F#m    C#m  E      B    D
Non si puo' sempre perdere
E
 per cui giochiamoci
F#m   C#m  E        B      D
certe luci non puoi spegnerle.
                                   Bm
Se e' un purgatorio e' nostro perlomeno.

Intermezzo:

e:---------------------------|---------
B:-----5-----5-----5-----5~--|-10-9----
G:-6/7---6/7---6/7---6/7-----|-----9--
D:---------------------------|---------
A:---------------------------|---------
E:---------------------------|---------
                             ^^^^^^^^ 
D       E
Urlando contro il cielo.
A         D    E    A         D    E
Ooh, ooh, ooh, ooh, ooh, ooh, ooh, ooh.

[intermezzo pianoforte] (troppo veloce per trascriverlo!)
Gli accordi sono i soliti: A D E
Verso la fine (sul D) entra la chitarra con dei power chords
ritmati a tempo con la canzone e suonati con pennate solo
discendenti:

D5 E5 A5  D5 E5

   C                       D
Fantasmi sulla A quattordici.
    C                          D
Dai finestrini passa odor di mare, diesel,
               E4 E
merda, morte e vita.


   F#m   C#m E       B     D
Il patto e'  stringerci di piu'
E
 prima di perderci.
F#m   C#m E    B     D
Forse ci  sentono lassu'.
                                Bm
E' un po' come sputare via il veleno.

D       E
Urlando contro il cielo.
A         D    E    A         D    E
Ooh, ooh, ooh, ooh, ooh, ooh, ooh, ooh. (ripete ad libitum)

Finisce con:
A         D            E    A         D            E
Ooh, ooh, ooh,         ooh, ooh, ooh, ooh,         ooh.
         

A         D    E    A         D    E    A 
Ooh, ooh, ooh, ooh, ooh, ooh, ooh, ooh. 
  
   


Indietro

Home